スムースジャズ、チルアウト、ラウンジ・・・オシャレな音楽の紹介と私のBlueG(ぶるーじー)なギターのブログ

スムースジャズ~BlueG(ぶるーじー)




# 今日の1曲(June 16, 2018)


Paul Shilts - Smile For Me

スポンサーサイト
| スムースジャズ | 18:31 | トラックバック:0 | コメント:0
Audacityで宅録


耳コピで活躍しているフリーソフトAudacity、録音機能もあるので試しに宅録してみました。使ってみてAudacityはマイク感度が高く、使い辛いです。でも、オーバーダブはズレません。



フリー素材のドラム・ループをリピートさせて、上からオリジナルのフレーズを弾いてみました。リズムに変化が無いから単調に聴こえる。残念ながら、打ち込みで変化に跳んだドラムパターンを作る才能が自分には無いのです。

テーマ:DTM、宅録、ミックス、レコーディング、機材 - ジャンル:音楽

| ダイアリー・アラカルト | 10:32 | トラックバック:0 | コメント:0
ナーディスをギターで弾く
以前に「コレが弾けたら嬉しい曲」で、チックコリアの「アランフェス協奏曲〜スペイン」を採り上げましたが、皆様上手く弾けたでしょうか?スペインは運指が難しいですね。

今回も「コレが弾けたら嬉しい曲」という事で、この曲にチャレンジ。


ビルエバンスのナーディス(ナルディス)です。原曲はマイルスなんですが、やっぱり弾くとしたらエバンスの演奏でしょう。と言ってもピアノでなくギターなので、コピー元はラルフ・タウナーです。奏法はフィンガースタイルで、私は親指と人差し指でピックを持ってです。

今回はテーマの触りをちょっと・・・私が弾いたのがこちら


タブ譜は、何時ものテキストでなく譜面の画像で判りやすいです。最初の2音は12Fのハーモニックスです。(クリックで画像拡大)



肝心のソロパートですが、そのラルフ・タウナーのソロがこちら・・・


まぁ、無理ですね。これは(汗 テーマだけ練習しましょう(笑

テーマ:JAZZ - ジャンル:音楽

| スムースジャズ・ギター | 16:23 | トラックバック:0 | コメント:0
ボラカイ島が閉鎖&コート・ダジュールのホテル
久しぶりのリゾート情報を。
ボラカイが4月26日から10月25日までの半年間閉鎖されるそうです。環境汚染が進んでいて、閉鎖の間にクリーンアップするそうです。旅行を予定されていた方は残念ですが、他の候補にセブやマレーシアのレダンとか宜しいかも?

リゾート情報がコレだけではつまらないので、何か気の利いたホテルでも紹介しておきます。




Hôtel Belles Rives(オテル・ベルズ リブズ)場所はコート・ダジュールのジュアン・レ・パン。何と言っても、このホテルの売りは「華麗なるギャッツビー」で有名なスコット・フィッツジェラルドの元邸宅というところ。アールデコのインテリアがジュアン・レ・パンの高級別荘の雰囲気を醸し出しています(笑

テーマ:高級ホテル - ジャンル:旅行

| リゾート情報&Music | 10:44 | トラックバック:0 | コメント:0
今夜の二曲 (Mar 31, 2018)




ピート・ベラスコとボブ・ボールドウィンのCoolな二曲。

テーマ:SmoothJazz - ジャンル:音楽

| スムースジャズ | 19:00 | トラックバック:0 | コメント:0
耳コピ ロニージョーダン So Whatのソロ

行方不明だったロニージョーダン So Whatのアドリブ・ソロの宅録音源が出てきた。昔、このブログでロニー・ジョーダン So Whatのギター講座をしていたのが懐かしい、アクセスが多くて人気がありました。

それで、私が弾いたソロ。


途中まで書いたタブ譜も一緒に出てきました。ちょっと弾いてみて下さい。(続きのタブ譜を書くかもしれない、お楽しみに 笑)

Riff
E|----------------------------------------7-----5----|
B|----------------------------------------8-----6----|
G|----------------------------------------7-----5----|
D|---------------------2------------------7-----5----|
A|---------2----3--5-------5--3----5------7-----5----|
E|---3--5--------------------------------------------|

E|-----------------------------------------7-----5---|
B|-----------------------------------------8-----6---|
G|-----------------------------------------7-----5---|
D|--------------------2--------------------7-----5---|
A|------2--3----5--------5--3-----5--------7-----5---|
E|---5--------------------------------5--------------|

E|----------------------------------------7-----5----|
B|----------------------------------------8-----6----|
G|----------------------------------------7-----5----|
D|---------------------2------------------7-----5----|
A|---------2----3--5-------5--3---5-5-----7-----5----|
E|---3--5--------------------------------------------|

E|------------------------------7-----5----|
B|------------------------------7-----5----|
G|------------------------------7-----5----|
D|------------------------------7-----5----|
A|---6/7---6/7----5-------------7-----5----|
E|--------------------5--------------------|
Solo
E|---------------------------------------------------|
B|---------4/5--5------------------------------------|
G|----5-7---------7p5---------------2----------------|
D|--7-----------------5-----2/3-535--3-5---32--------|
A|--------------------------------------------5------|
E|---------------------------------------------------|

E|------------Arpeggio-----------7-------------------|
B|----------------------5------56--5^----------------|
G|-----------------5------7=7------------------------|
D|---2-3p2-------5-----------------------------------|
A|-5--------5--7-------------------------------------|
E|----------*----------------------------------------|

「*」でポジション移動、人差し指で

テーマ:SmoothJazz - ジャンル:音楽

| スムースジャズ・ギター | 19:00 | コメント:0
今日の1曲 (Jan 7, 2018)


Sekou Bunchのファンクな1曲、こういったホーン・アレンジが好きなんですね。ご機嫌です。

テーマ:SmoothJazz - ジャンル:音楽

| スムースジャズ | 19:00 | トラックバック:0 | コメント:0
| ホーム | 次ページ

プロフィール

バジィー

Author:バジィー
このブログはあまり知られていないスムースジャズ、チルアウト、ラウンジのビジュアル・アーカイブです。詳細は下の「カテゴリー」をご覧下さい。あと、私が弾くBlueGなギター音源も紹介します(笑

カテゴリー
最近のコメント
最近の記事
FC2カウンター

カレンダー

05 | 2018/06 | 07
- - - - - 1 2
3 4 5 6 7 8 9
10 11 12 13 14 15 16
17 18 19 20 21 22 23
24 25 26 27 28 29 30

ブログ内検索


Blue Gなお知らせ


コレは聴きたい!オススメのCDと動画 ビデオの試聴はCDジャケットをクリック!
(こちらは視聴可能です)


《 スムースジャズ 》
スムースジャズ・ギターリスト、愛用のギターを紹介


スムースジャズを弾きたい、試奏したエレガット特集


New!
私、バジィーのお気に入りのスムースジャズ(サックス編)


スムースジャズのベース・プレイヤーをいろいろと


ニルスの教則ビデオはこちら


スムースジャズのキーボードプレーヤー達です


スムースジャズ・ライブ動画を紹介


ノーマン・ブラウン特集。二十代?頃の演奏も



《 チルアウト・ラウンジ 》 チルアウト・ラウンジの名曲を集めてみました


これは聴きたい、チルアウト・ラウンジの名曲2


のんびりとリラックスしたチルアウト・ラウンジを集めてみました。


海中をフワフワと漂う感じのフレンチ・ラウンジ


Ocean Blueが人気のチルアウト・ユニット


抜群のメロディーセンス、屈折したルビーのような輝き


まさに「哀愁のパリ」をテーマにした名盤、素晴らしいです


NYのインディーポップ・グループ陰りのある繊細なメロディが特徴です


バンド名は「深夜の卒業生」、ちょっと意味深な魅力があります


恋人たちに、オススメの1枚
cd05.jpg

Jazzyな大人のボーカルが聴きたい
cd06.jpg

私のお気に入りの1曲
cd07.jpg

これはクール!カッコいいですよ
cd07.jpg

これは名盤、独特の深い味わいがあります
cd08.jpg

秋にピッタリ、魅惑のタンゴ・エレクトロニカ
cd09.jpg

これは美しい、期待のピュア・ボーカル
cd10.jpg